Anabolics
Search More Than 6,000,000 Posts
Results 1 to 11 of 11

Thread: Winstrol

  1. #1
    mc_ake is offline Banned
    Join Date
    Feb 2002
    Location
    UK
    Posts
    95

    Winstrol

    I'm doing a stack of deca , sustanon 250 & dianobol, I am include some winstrol in there so when is the best time in the cycle to include it? oh yeh, how much should i take? tablets & depot coz' i'm not sure which one I be getting yet? I'm 19 & this is my second cycle, you might think i'm to young but i gonna do it anyway................

  2. #2
    ultragainz is offline Junior Member
    Join Date
    Sep 2001
    Location
    The World Is Yours/New Wo
    Posts
    55
    here is what i would do

    wks--d-bol---winny---deca ----sus
    1-----40-----------------400------750
    2-----40-----------------400------750
    3-----30-----------------400------750
    4-----30-----------------400------750
    5-----30-----------------400------750
    6-----20-----------------400------750
    7------------------------400------750
    8----------------50ed--300------750
    9----------------50ed--300------500
    10--------------50ed-------------500
    11--------------50ed-------------500
    12--------------50ed-----------------
    13--------------50eod---------------
    clomd after cycle

    drink 1-2 gallons of water a day....and take liver protectors like ALA at 800-1000mgs/day...

    or do this instead

    wks---d-bol-----winny-----sus-----deca
    1-------------------50ed----750-----400
    2-------------------50ed----750-----400
    3-------------------50ed----750-----400
    4-------------------50ed----750-----400
    5------------------50ed-----750-----400
    6------------------50eod---750-----400
    7-----------------------------750-----400
    8-------40-------------------750-----300
    9-------40-------------------750-----300
    10------40------------------500---------
    11------30-----------------500----------
    12------30--------------------------------
    13------20--------------------------------


    www.kilosports.com has cheap prices on ALA

    and go to www.anabolicfitness.net and buy there liver protector at there AF store


    ***OR IF YOU GET THE WINNY TABS TAKE THAT AT 30-40MGS***

  3. #3
    Mallet's Avatar
    Mallet is offline Anabolic Member
    Join Date
    Dec 2001
    Location
    Canada - TO
    Posts
    3,484
    Why are we running the d-bol for 6 weeks and tapering the sus and deca ?

    And since it takes 3 weeks for the sus to clear..why not start the winnie at week 9-14 and then start clomid! JMO

  4. #4
    Sicilian30's Avatar
    Sicilian30 is offline Respected Member
    Join Date
    Sep 2001
    Location
    There is no place like ho
    Posts
    3,690
    I agree, I'd do the dbol at the beginnin of my cycle, and use Winny later in the cycle, it will take a few weeks for the test to start taking effect. Clomid post cycle. By the way, that is alot of sust. That guy is going to be poking himself every other day!

  5. #5
    dane26's Avatar
    dane26 is offline Retired Moderator
    Join Date
    Aug 2001
    Location
    Zoo-York
    Posts
    2,532
    i was wondering that my self. i would run something like dbol 1-4 @ 30-40 mg, sus 1-10 @ 500 mg, deca 1-8 @400 mg and winny 9-12 @ 50 mg ed. you could change this around a little, but for the most part, this is the best way

  6. #6
    mc_ake is offline Banned
    Join Date
    Feb 2002
    Location
    UK
    Posts
    95
    isn't 50mg ed a lot 4 a beginner though? Would 25mg a day be any good? would there be much side effects with 50mg ed?

  7. #7
    Mallet's Avatar
    Mallet is offline Anabolic Member
    Join Date
    Dec 2001
    Location
    Canada - TO
    Posts
    3,484
    If your reffering to taking winnie at 50mgs/day...then no it's not to much for a first timer...50mgs/day of d-bol might be high for first timers.

    Run it just like Dane has said and you will be good to go and I think you will be happy with the progress!

    Let us know what you decide?

  8. #8
    dane26's Avatar
    dane26 is offline Retired Moderator
    Join Date
    Aug 2001
    Location
    Zoo-York
    Posts
    2,532
    50 mg is not too much.....if you want, just do 100 eod.

  9. #9
    mc_ake is offline Banned
    Join Date
    Feb 2002
    Location
    UK
    Posts
    95
    i'll do 50 a day, is the tabs or injections better?

  10. #10
    Mallet's Avatar
    Mallet is offline Anabolic Member
    Join Date
    Dec 2001
    Location
    Canada - TO
    Posts
    3,484
    It's the same IMO...there both 17a !

  11. #11
    The Emperor's Avatar
    The Emperor is offline Associate Member
    Join Date
    Jan 2002
    Location
    The dark jungle...
    Posts
    177
    Originally posted by dane26
    50 mg is not too much.....if you want, just do 100 eod.
    I agree with the first part... I read a study where guys were given 100mgs/day for 6 and they didn't have any real sides...

    http://kkrammer0.tripod.com/s1.pdf

Thread Information

Users Browsing this Thread

There are currently 1 users browsing this thread. (0 members and 1 guests)

Posting Permissions

  • You may not post new threads
  • You may not post replies
  • You may not post attachments
  • You may not edit your posts
  •